ISO-10303-21;
HEADER;
FILE_DESCRIPTION (( 'STEP AP203' ),
    '1' );
FILE_NAME ('MQWP-25.4-514.5.STEP',
    '2020-12-22T09:30:02',
    ( '' ),
    ( '' ),
    'SwSTEP 2.0',
    'SolidWorks 2020',
    '' );
FILE_SCHEMA (( 'CONFIG_CONTROL_DESIGN' ));
ENDSEC;

DATA;
#1 = DATE_TIME_ROLE ( 'classification_date' ) ;
#2 = ORIENTED_EDGE ( 'NONE', *, *, #43, .F. ) ;
#3 = CC_DESIGN_PERSON_AND_ORGANIZATION_ASSIGNMENT ( #158, #120, ( #19 ) ) ;
#4 = CARTESIAN_POINT ( 'NONE',  ( 0.9999999999999995559, 0.000000000000000000, 0.000000000000000000 ) ) ;
#5 = EDGE_LOOP ( 'NONE', ( #107, #28, #136, #94 ) ) ;
#6 = DIRECTION ( 'NONE',  ( 0.000000000000000000, 0.000000000000000000, -1.000000000000000000 ) ) ;
#7 = CC_DESIGN_APPROVAL ( #145, ( #26 ) ) ;
#8 = APPROVAL ( #144, 'UNSPECIFIED' ) ;
#9 = CIRCLE ( 'NONE', #128, 3.000000000000000000 ) ;
#10 = APPROVAL_ROLE ( '' ) ;
#11 = APPROVAL_STATUS ( 'not_yet_approved' ) ;
#12 = CC_DESIGN_DATE_AND_TIME_ASSIGNMENT ( #172, #1, ( #26 ) ) ;
#13 = DIRECTION ( 'NONE',  ( 1.000000000000000000, 0.000000000000000000, 0.000000000000000000 ) ) ;
#14 = DIRECTION ( 'NONE',  ( 0.000000000000000000, 0.000000000000000000, 1.000000000000000000 ) ) ;
#15 = VECTOR ( 'NONE', #31, 1000.000000000000000 ) ;
#16 = CARTESIAN_POINT ( 'NONE',  ( 1.224646799147353454E-16, 3.000000000000000000, 0.000000000000000000 ) ) ;
#17 = CIRCLE ( 'NONE', #29, 3.000000000000000000 ) ;
#18 = CALENDAR_DATE ( 2020, 22, 12 ) ;
#19 = PRODUCT_DEFINITION_FORMATION_WITH_SPECIFIED_SOURCE ( 'ANY', '', #134, .NOT_KNOWN. ) ;
#20 = DIRECTION ( 'NONE',  ( 0.000000000000000000, 0.000000000000000000, 1.000000000000000000 ) ) ;
#21 = DIRECTION ( 'NONE',  ( 0.000000000000000000, 0.000000000000000000, 1.000000000000000000 ) ) ;
#22 = APPROVAL_DATE_TIME ( #91, #145 ) ;
#23 = CLOSED_SHELL ( 'NONE', ( #171, #65, #162, #149 ) ) ;
#24 = DIRECTION ( 'NONE',  ( -1.000000000000000000, -0.000000000000000000, -0.000000000000000000 ) ) ;
#25 = DIRECTION ( 'NONE',  ( -1.000000000000000000, -0.000000000000000000, -0.000000000000000000 ) ) ;
#26 = SECURITY_CLASSIFICATION ( '', '', #157 ) ;
#27 = EDGE_CURVE ( 'NONE', #45, #135, #17, .T. ) ;
#28 = ORIENTED_EDGE ( 'NONE', *, *, #57, .T. ) ;
#29 = AXIS2_PLACEMENT_3D ( 'NONE', #161, #24, #151 ) ;
#30 = CC_DESIGN_PERSON_AND_ORGANIZATION_ASSIGNMENT ( #129, #50, ( #19 ) ) ;
#31 = DIRECTION ( 'NONE',  ( -1.000000000000000000, -0.000000000000000000, -0.000000000000000000 ) ) ;
#32 = DIRECTION ( 'NONE',  ( -1.000000000000000000, -0.000000000000000000, -0.000000000000000000 ) ) ;
#33 = CYLINDRICAL_SURFACE ( 'NONE', #64, 3.000000000000000000 ) ;
#34 = CARTESIAN_POINT ( 'NONE',  ( 0.000000000000000000, 0.000000000000000000, 3.000000000000000000 ) ) ;
#35 = DATE_AND_TIME ( #90, #75 ) ;
#36 = APPLICATION_PROTOCOL_DEFINITION ( 'international standard', 'config_control_design', 1994, #105 ) ;
#37 = PRODUCT_DEFINITION ( 'UNKNOWN', '', #19, #112 ) ;
#38 = CARTESIAN_POINT ( 'NONE',  ( 0.000000000000000000, 0.000000000000000000, 0.000000000000000000 ) ) ;
#39 = PERSON_AND_ORGANIZATION ( #114, #166 ) ;
#40 = CC_DESIGN_PERSON_AND_ORGANIZATION_ASSIGNMENT ( #146, #169, ( #37 ) ) ;
#41 = APPLICATION_PROTOCOL_DEFINITION ( 'international standard', 'config_control_design', 1994, #121 ) ;
#42 = COORDINATED_UNIVERSAL_TIME_OFFSET ( 8, 0, .AHEAD. ) ;
#43 = EDGE_CURVE ( 'NONE', #150, #152, #44, .T. ) ;
#44 = CIRCLE ( 'NONE', #53, 3.000000000000000000 ) ;
#45 = VERTEX_POINT ( 'NONE', #123 ) ;
#46 = DIRECTION ( 'NONE',  ( -1.000000000000000000, -0.000000000000000000, -0.000000000000000000 ) ) ;
#47 = AXIS2_PLACEMENT_3D ( 'NONE', #139, #63, #130 ) ;
#48 = CARTESIAN_POINT ( 'NONE',  ( 2.449293598294706907E-16, 0.000000000000000000, 3.000000000000000000 ) ) ;
#49 = CYLINDRICAL_SURFACE ( 'NONE', #93, 3.000000000000000000 ) ;
#50 = PERSON_AND_ORGANIZATION_ROLE ( 'design_supplier' ) ;
#51 = PERSON_AND_ORGANIZATION ( #114, #166 ) ;
#52 = CARTESIAN_POINT ( 'NONE',  ( 0.000000000000000000, 0.000000000000000000, 0.000000000000000000 ) ) ;
#53 = AXIS2_PLACEMENT_3D ( 'NONE', #81, #25, #14 ) ;
#54 = COORDINATED_UNIVERSAL_TIME_OFFSET ( 8, 0, .AHEAD. ) ;
#55 = COORDINATED_UNIVERSAL_TIME_OFFSET ( 8, 0, .AHEAD. ) ;
#56 = EDGE_LOOP ( 'NONE', ( #59, #85 ) ) ;
#57 = EDGE_CURVE ( 'NONE', #135, #45, #80, .T. ) ;
#58 = MANIFOLD_SOLID_BREP ( 'Ðý×', #23 ) ;
#59 = ORIENTED_EDGE ( 'NONE', *, *, #43, .T. ) ;
#60 =( GEOMETRIC_REPRESENTATION_CONTEXT ( 3 ) GLOBAL_UNCERTAINTY_ASSIGNED_CONTEXT ( ( #66 ) ) GLOBAL_UNIT_ASSIGNED_CONTEXT ( ( #156, #138, #74 ) ) REPRESENTATION_CONTEXT ( 'NONE', 'WORKASPACE' ) );
#61 = ORIENTED_EDGE ( 'NONE', *, *, #27, .T. ) ;
#62 = PLANE ( 'NONE',  #122 ) ;
#63 = DIRECTION ( 'NONE',  ( -1.000000000000000000, 0.000000000000000000, -0.000000000000000000 ) ) ;
#64 = AXIS2_PLACEMENT_3D ( 'NONE', #52, #88, #20 ) ;
#65 = ADVANCED_FACE ( 'NONE', ( #86 ), #49, .T. ) ;
#66 = UNCERTAINTY_MEASURE_WITH_UNIT (LENGTH_MEASURE( 1.000000000000000082E-05 ), #156, 'distance_accuracy_value', 'NONE');
#67 = CC_DESIGN_DATE_AND_TIME_ASSIGNMENT ( #35, #77, ( #37 ) ) ;
#68 = CALENDAR_DATE ( 2020, 22, 12 ) ;
#69 = LOCAL_TIME ( 17, 30, 2.000000000000000000, #143 ) ;
#70 = CC_DESIGN_PERSON_AND_ORGANIZATION_ASSIGNMENT ( #160, #92, ( #134 ) ) ;
#71 = EDGE_LOOP ( 'NONE', ( #61, #163, #2, #106 ) ) ;
#72 = LOCAL_TIME ( 17, 30, 2.000000000000000000, #117 ) ;
#73 = LINE ( 'NONE', #89, #104 ) ;
#74 =( NAMED_UNIT ( * ) SI_UNIT ( $, .STERADIAN. ) SOLID_ANGLE_UNIT ( ) );
#75 = LOCAL_TIME ( 17, 30, 2.000000000000000000, #54 ) ;
#76 = EDGE_CURVE ( 'NONE', #45, #150, #153, .T. ) ;
#77 = DATE_TIME_ROLE ( 'creation_date' ) ;
#78 = CALENDAR_DATE ( 2020, 22, 12 ) ;
#79 = APPROVAL_ROLE ( '' ) ;
#80 = CIRCLE ( 'NONE', #124, 3.000000000000000000 ) ;
#81 = CARTESIAN_POINT ( 'NONE',  ( 2.449293598294706907E-16, 0.000000000000000000, 0.000000000000000000 ) ) ;
#82 = DIRECTION ( 'NONE',  ( -1.000000000000000000, -0.000000000000000000, -0.000000000000000000 ) ) ;
#83 = AXIS2_PLACEMENT_3D ( 'NONE', #38, #21, #13 ) ;
#84 = EDGE_CURVE ( 'NONE', #152, #150, #9, .T. ) ;
#85 = ORIENTED_EDGE ( 'NONE', *, *, #84, .T. ) ;
#86 = FACE_OUTER_BOUND ( 'NONE', #5, .T. ) ;
#87 = FACE_OUTER_BOUND ( 'NONE', #56, .T. ) ;
#88 = DIRECTION ( 'NONE',  ( -1.000000000000000000, -0.000000000000000000, -0.000000000000000000 ) ) ;
#89 = CARTESIAN_POINT ( 'NONE',  ( 0.000000000000000000, 3.673940397442059868E-16, -3.000000000000000000 ) ) ;
#90 = CALENDAR_DATE ( 2020, 22, 12 ) ;
#91 = DATE_AND_TIME ( #78, #69 ) ;
#92 = PERSON_AND_ORGANIZATION_ROLE ( 'design_owner' ) ;
#93 = AXIS2_PLACEMENT_3D ( 'NONE', #110, #46, #100 ) ;
#94 = ORIENTED_EDGE ( 'NONE', *, *, #84, .F. ) ;
#95 = CC_DESIGN_APPROVAL ( #173, ( #19 ) ) ;
#96 = DIRECTION ( 'NONE',  ( -1.000000000000000000, -0.000000000000000000, -0.000000000000000000 ) ) ;
#97 = APPROVAL_PERSON_ORGANIZATION ( #51, #173, #174 ) ;
#98 = PRODUCT_DEFINITION_SHAPE ( 'NONE', 'NONE',  #37 ) ;
#99 = DIRECTION ( 'NONE',  ( 1.000000000000000000, 0.000000000000000000, 0.000000000000000000 ) ) ;
#100 = DIRECTION ( 'NONE',  ( 0.000000000000000000, 0.000000000000000000, 1.000000000000000000 ) ) ;
#101 = CALENDAR_DATE ( 2020, 22, 12 ) ;
#102 = FACE_OUTER_BOUND ( 'NONE', #71, .T. ) ;
#103 = PERSON_AND_ORGANIZATION_ROLE ( 'classification_officer' ) ;
#104 = VECTOR ( 'NONE', #96, 1000.000000000000000 ) ;
#105 = APPLICATION_CONTEXT ( 'configuration controlled 3d designs of mechanical parts and assemblies' ) ;
#106 = ORIENTED_EDGE ( 'NONE', *, *, #76, .F. ) ;
#107 = ORIENTED_EDGE ( 'NONE', *, *, #154, .F. ) ;
#108 = CARTESIAN_POINT ( 'NONE',  ( 2.449293598294706907E-16, 3.673940397442059868E-16, -3.000000000000000000 ) ) ;
#109 = PRODUCT_RELATED_PRODUCT_CATEGORY ( 'detail', '', ( #134 ) ) ;
#110 = CARTESIAN_POINT ( 'NONE',  ( 0.000000000000000000, 0.000000000000000000, 0.000000000000000000 ) ) ;
#111 = DATE_AND_TIME ( #101, #148 ) ;
#112 = DESIGN_CONTEXT ( 'detailed design', #121, 'design' ) ;
#113 = APPROVAL_DATE_TIME ( #119, #8 ) ;
#114 = PERSON ( 'UNSPECIFIED', 'UNSPECIFIED', 'UNSPECIFIED', ('UNSPECIFIED'), ('UNSPECIFIED'), ('UNSPECIFIED') ) ;
#115 = DIRECTION ( 'NONE',  ( 0.000000000000000000, 0.000000000000000000, 1.000000000000000000 ) ) ;
#116 = APPROVAL_DATE_TIME ( #111, #173 ) ;
#117 = COORDINATED_UNIVERSAL_TIME_OFFSET ( 8, 0, .AHEAD. ) ;
#118 = APPROVAL_PERSON_ORGANIZATION ( #147, #8, #79 ) ;
#119 = DATE_AND_TIME ( #68, #72 ) ;
#120 = PERSON_AND_ORGANIZATION_ROLE ( 'creator' ) ;
#121 = APPLICATION_CONTEXT ( 'configuration controlled 3d designs of mechanical parts and assemblies' ) ;
#122 = AXIS2_PLACEMENT_3D ( 'NONE', #16, #99, #6 ) ;
#123 = CARTESIAN_POINT ( 'NONE',  ( 0.9999999999999995559, 0.000000000000000000, 3.000000000000000000 ) ) ;
#124 = AXIS2_PLACEMENT_3D ( 'NONE', #4, #82, #115 ) ;
#125 = FACE_OUTER_BOUND ( 'NONE', #137, .T. ) ;
#126 = DIRECTION ( 'NONE',  ( 0.000000000000000000, 0.000000000000000000, 1.000000000000000000 ) ) ;
#127 = LOCAL_TIME ( 17, 30, 2.000000000000000000, #55 ) ;
#128 = AXIS2_PLACEMENT_3D ( 'NONE', #155, #32, #126 ) ;
#129 = PERSON_AND_ORGANIZATION ( #114, #166 ) ;
#130 = DIRECTION ( 'NONE',  ( -0.000000000000000000, 0.000000000000000000, 1.000000000000000000 ) ) ;
#131 = SHAPE_DEFINITION_REPRESENTATION ( #98, #170 ) ;
#132 = CC_DESIGN_APPROVAL ( #8, ( #37 ) ) ;
#133 = ORIENTED_EDGE ( 'NONE', *, *, #27, .F. ) ;
#134 = PRODUCT ( 'MQWP-25.4-514.5', 'MQWP-25.4-514.5', '', ( #175 ) ) ;
#135 = VERTEX_POINT ( 'NONE', #167 ) ;
#136 = ORIENTED_EDGE ( 'NONE', *, *, #76, .T. ) ;
#137 = EDGE_LOOP ( 'NONE', ( #133, #164 ) ) ;
#138 =( NAMED_UNIT ( * ) PLANE_ANGLE_UNIT ( ) SI_UNIT ( $, .RADIAN. ) );
#139 = CARTESIAN_POINT ( 'NONE',  ( 0.9999999999999997780, 3.000000000000000000, 0.000000000000000000 ) ) ;
#140 = CC_DESIGN_PERSON_AND_ORGANIZATION_ASSIGNMENT ( #159, #103, ( #26 ) ) ;
#141 = APPROVAL_STATUS ( 'not_yet_approved' ) ;
#142 = APPROVAL_PERSON_ORGANIZATION ( #39, #145, #10 ) ;
#143 = COORDINATED_UNIVERSAL_TIME_OFFSET ( 8, 0, .AHEAD. ) ;
#144 = APPROVAL_STATUS ( 'not_yet_approved' ) ;
#145 = APPROVAL ( #11, 'UNSPECIFIED' ) ;
#146 = PERSON_AND_ORGANIZATION ( #114, #166 ) ;
#147 = PERSON_AND_ORGANIZATION ( #114, #166 ) ;
#148 = LOCAL_TIME ( 17, 30, 2.000000000000000000, #42 ) ;
#149 = ADVANCED_FACE ( 'NONE', ( #87 ), #62, .F. ) ;
#150 = VERTEX_POINT ( 'NONE', #48 ) ;
#151 = DIRECTION ( 'NONE',  ( 0.000000000000000000, 0.000000000000000000, 1.000000000000000000 ) ) ;
#152 = VERTEX_POINT ( 'NONE', #108 ) ;
#153 = LINE ( 'NONE', #34, #15 ) ;
#154 = EDGE_CURVE ( 'NONE', #135, #152, #73, .T. ) ;
#155 = CARTESIAN_POINT ( 'NONE',  ( 2.449293598294706907E-16, 0.000000000000000000, 0.000000000000000000 ) ) ;
#156 =( LENGTH_UNIT ( ) NAMED_UNIT ( * ) SI_UNIT ( .MILLI., .METRE. ) );
#157 = SECURITY_CLASSIFICATION_LEVEL ( 'unclassified' ) ;
#158 = PERSON_AND_ORGANIZATION ( #114, #166 ) ;
#159 = PERSON_AND_ORGANIZATION ( #114, #166 ) ;
#160 = PERSON_AND_ORGANIZATION ( #114, #166 ) ;
#161 = CARTESIAN_POINT ( 'NONE',  ( 0.9999999999999995559, 0.000000000000000000, 0.000000000000000000 ) ) ;
#162 = ADVANCED_FACE ( 'NONE', ( #125 ), #165, .F. ) ;
#163 = ORIENTED_EDGE ( 'NONE', *, *, #154, .T. ) ;
#164 = ORIENTED_EDGE ( 'NONE', *, *, #57, .F. ) ;
#165 = PLANE ( 'NONE',  #47 ) ;
#166 = ORGANIZATION ( 'UNSPECIFIED', 'UNSPECIFIED', '' ) ;
#167 = CARTESIAN_POINT ( 'NONE',  ( 0.9999999999999995559, 3.673940397442059868E-16, -3.000000000000000000 ) ) ;
#168 = CC_DESIGN_SECURITY_CLASSIFICATION ( #26, ( #19 ) ) ;
#169 = PERSON_AND_ORGANIZATION_ROLE ( 'creator' ) ;
#170 = ADVANCED_BREP_SHAPE_REPRESENTATION ( 'MQWP-25.4-514.5', ( #58, #83 ), #60 ) ;
#171 = ADVANCED_FACE ( 'NONE', ( #102 ), #33, .T. ) ;
#172 = DATE_AND_TIME ( #18, #127 ) ;
#173 = APPROVAL ( #141, 'UNSPECIFIED' ) ;
#174 = APPROVAL_ROLE ( '' ) ;
#175 = MECHANICAL_CONTEXT ( 'NONE', #105, 'mechanical' ) ;
ENDSEC;
END-ISO-10303-21;
